gamları nasıl ögrenebilirim

#1
arkadaslar bu gamları nerden,nasıl ögrenebilirim.bana yardımcı olurmusunuz? site felan verebilirsiniz arkadaslar,yada kendiniz bişeyler yazabilirsiniz.bana yardımcı olursanız sevinirim.simdiden tesekkürler..
 
#6
guitar pro varsa eger elinde yarim saat kurcala programi kendi kendine sökersin zaten, zor bi program degil. menüde tools ' da scales var çok faydasini görürsün
 
#7
Küçük bir adım...

Kod:
 A major pentatonik

 e---------------------------------5--8--------
 B----------------------------5--8-------------
 G---------------------5--7--------------------
 D---------------5--7--------------------------
 A---------5--7--------------------------------
 E---5--8--------------------------------------


A minor harmonik

e-----13-12-----------------------------------------------
 B-----------15-13-12--------------------------------------
 G--------------------14-13--------------------------------
 D---------------------------15--14-12---------------------
 A-------------------------------------15-14-12-11---------
 E-------------------------------------------------13-12---
 
#14
oooo olmaz olurmu daha ne yöntemler var, misal yatmadan önce her aksam yasin-i serifden 2 ser ayet okuyacaksin, bi basdan bi sondan, ama önce sondakiyle baslamayi untma yoksa ise yaramaz, arapcasindan okursan daha makbul. bu islemi 2 tur yapana kadar devam edeceksin. bu gün imrenerek dinledigin ustalar nasil bu noktaya geldiler saniyosun, eskiden egitim cd si mi vardi. ben biliyorum,YOKTU. eger bu zor geliyosa arkadaslarin dedigi kaynaklarida kullanabilirsin tabi, ise yarayabilirler.
 
#16
azkurupilav arkadaşım, sinir olmaktan değil, verilen önerilere bir yorum getirmeden "ee deaha başka?" deyişin, "ben bu işe emek sarfetmek istemiyorum, nasıl öğrenirim" gibi bir manaya getiriyor mevzuyu. Gamları kuru kuruya öğrenmek çalışına hiç bir şey kazandırmaz. Biraz armoni öğrenmeye başlaman gerek. sonra gamların ne için neye kullanılacağını öğrenirsin. Bu daha işin basit kısmı. asıl işi bunları yaratıcı olarak kullanabilmek, o ise ölene kadar gidebilecek bir mevzu.

Şu gam budur, bu gam şudur pozisyonları bunlardır diye gösteren kaynaklar çok işine yaramaz bu yüzden. O gamı neyin üzerine çalacağını bilmedikten sonra? Değil mi...

Bu yüzden yukarıda önerilen kitapları edinmeye çalış. Eğer gerçekten ciddiysen. Çünkü vakit alacak.
Kolay gelsin
 
#18
Öyle bir anda öğrenilecek bir şey değil bu aylar hatta seneler alabilir...

Al bir kitap öğren.Ama bence sabır göster ve çalış.Zaten Majörleri öğrendinmi arkası gelir minörleride çözersin.Temelini kaptınmıöyle zor bir şey olmadığını anlarsın ama zaman alması kaçınılmaz.

Kolay gelsin...
 
#19
moruk eger varsa elinde bearshare diye bi indirme programı oradan blues guitar yaz ve arat ( döküman olarak ) karşına accayip şeyler çıkacak onları al kullan minör majör dorian maxidorian...vs. pentatoniklerin hepsinin pozisyonları var..işini görecektir
 

Üst