harmonic sesler

#1
bu başlıkla ilgili bir çok kişinin sorunu olduğunu düşünüyorum....
sadece octav sesleri değil 3. 5. 7. sesleri verebilecek anolog bir pedal varmı piyasada acaba...teşekkürler...
 
#2
Pitch shifter diye bir efekt var(analogu da vardır herhalde) Bastığın sesin yanında -12 - - -- +12 istediğin sesi veriyor. Yani +7 ye alıp tek tele basınca power basmışın gibi oluyor vs..
Bir de Whammy diye bir alet var,senin sesini tamamen inceltiyo/kalınlaştırıyo.Yani kendi bastığını duyamıyorsun,farklı bir ses duyuyorsun.
 
#5
Harmonizer ararsan ucuz yollu Boss HR2 var, ton ve scale belirtince ona güre 3'lü 5'li ne istersen katıyor.

Para sorun değil dersen ebay den 2. el eventide h3000 düşürebilirsin.
 
#7
Şarkıları tek gitar çalman mümkün değil.Çünkü harmonilerde genelde +5 , +3 falan diye gitmez.Sadece başlangıç notası +3 falan olur.
Misal trooper :

Birinci gitar
-------------------------------------------------------------------------
--------------------------------------12--------------------------------
-----9--12---11---12--11--12---------------12--11--12--11--12----
--------------------------------------------------------------------------
--------------------------------------------------------------------------
---------------------------------------------------------------------------
böyle giderken

______-

İkinci gitar

-------------------------------------------------------------------
-------------------------------------15---------------------------
------12--16--14--16--14--16---------16--14--16--14--16---
-------------------------------------------------------------------
-------------------------------------------------------------------
-------------------------------------------------------------------
diye gidiyor

Anca 1 oktav kalın/ince falan alırsın (ki o da var trooperda sanırım) o da pek hoş olmaz.


2. gitarda 16. perdeye çıkıyor,bu da +4 oluyor haliyle :)
 
Üst