VAI tarzı tapping

#1
açıkçası gelmiş geçmiş gitaristler arasında en güzel ve başarılı bulduğum tapping numaraları hep vai'ninkilerdir.tarzı çok harikadır..bu tarzda sizinde kendi mini sololarınız (lick) varsa paylaşalım buradan...

bu ilki benim değil amerikalı bir arkadaştan...bu vainin ilk G3 videosunda for the love of god öncesinde attığı solonun tappingli kısmının küçük bir parçası...
--||-------8h11t16p11p8-------------||
b--||-8h9--------------------t16p9p8--||
g--||-------------------------------------||
d--||-------------------------------------||
a--||-------------------------------------||
E--||-------------------------------------||

alttaki ise benimki...


1.hareket

e------------h8h-10--t15-t17--p15--p10--p8-----------------------------------
B----8h-10-------------------------------------p10--p8-s\5s/8h-10..(bunu 2 kez tekrar ediyoruz)
G-----------------------------------------------------------------------------------
D------------------------------------------------------------------------------------
A------------------------------------------------------------------------------------
E------------------------------------------------------------------------------------

hareket 2
ilk hareketi 2 kez çaldıktan sonra bunu çalın ve G teli E ile bitirin.

e--t15-p12-t15-p12-p10-p8-t14-p10-p8-t15-p12-p10-p8---------------------
B---------------------------------------------------------------t13-p12-p10-p9
G-------------------------------------------------------------------------------------t12-p9--
D------------------------------------------------------------------------------------
A------------------------------------------------------------------------------------
E------------------------------------------------------------------------------------
ilk hareket akışkan ve rahat olmalı ve 2. bunu uyumlu bir şekilde takip etmeli...
 
#3
ya o romeo arızalı bir adam, iki eliyle 4 saplı gitar çalıyor falan da, neoklasik batağından kendini kurtaramamış idi ben en son dinlediğimde. belki de yapmıştır yeni güzel şeyler.

aşırı teknik bir adam olduğu konusu doğrudur ama. tapping konusunda bin bir maymunluk yapabildiğine de eminim :)
 
#6
şimdi çoğu gitarist biliyordur, ama tapping deyince, bilmeyenler için şu bilgiyi buraya yazayım:

gitarda tappingin mucidi "van hallen" olarak bilinir. ve bu tekniği bildiğim kadarıyla bizim bağlamadaki "selpe" tekniğini gördükten sonra gitarda uygulamak aklına gelmiştir. kendisi fikrin aklına banyoda gitar çalarken geldiğini söylüyor ayrıca bildiğim kadarıyla.

tekniği ilk keşfettiği zaman kimsenin kopyalamaması için, tapping yapacağı zaman sahnede seyirciye arkasını döndüğü de bilinir. kayda geçsin diye yazıyorum :)
 
#8
HAftalardır deli gibi tapping çalışıyorum ve tam da bu tarz bişeler yapmaya kasıyordum.Bir şey sorucam...
Senin yazdığın kısımda "1.hareketteki" 15-17-15 kısmını nasıl çalıyorsun?
Eğer sağ elinin iki parmağını kullanıyorsan çok ilginçtir ben de tam buna çalışıyordum... Herhangi birni bunu kullanırken görmemiştim, herkese kesin ypanlar vardır ama ben kendim uydurdum diyordum :D
Eğer öyle çalmıyorsan da nasıl çaldığını açıklarsan sevinirim :D
 
#9
ben 4 saplı elektro yla çalan bir tek michael angelo var diye biliyorum,bu michael romeo yu bununla karıştırmış olmayın? ;)
o gitarınıda çaldılar zaten elemanın,90 ların başında.
 
#11
Berkay, (mustaine_64)

Sanırım 15 ile 17 arasında tap-slide yapacaksın. Parmağını 15'e koyup 17'ye kaydırıp geri 15 kaydıracaksın ve ardından bırakacaksın. En mantıklısı o.

Ben de bişi yazayım bari şu sıralarda bir besteme eklemeyi düşündüğüm solonun bir kısmını oluşturacak bu,

e---------------------------------------------------------------------------------
b---------------------------------------------------------------------------------
g----------------------------------------------------------------------------------
d-----------------------------14-h16-t17-p16-p14------------------------------
a----------------14-h15-t18-------------------------t18-p15-p14--------------
e---14-h15-t17-----------------------------------------------------t17-p15----

e----
b---
g----
d-------------------------------14-h16-t17-p16-p14-h16-t17-p16-p14-h16
a-----------------14-h15-t18---------------------------------------------------
e---14-h15-t17------------------------------------------------------------------

e---
b---
g--------------------------------14-h16-t17-16-14---------------------------
d------------------14-h16-t17-----------------------t17-16-14--------------
a---14-h15-t18---------------------------------------------------t18-15----
e--

e---
b---
g------------------------------14-16-t17-16-14-16-t17-16-14-16-----
d-----------------14-16-t17-------------------------------------------------
a---14-15-t18--------------------------------------------------------------
e---

e--------------------------10-12-t13-12-10------------------------------
b--------------10-12-t13--------------------t13-12-10-----------------
g---9-10-t13---------------------------------------------t13-10---------
d---
a---
e---

e----------------------------10-12-t13-12-10-12-t13-12-10-12--------
b---------------10-12-t13-------------------------------------------------
g---9-10-t13--------------------------------------------------------------
d---
a---
e---

e----------------------------17-19-t20-19-17---------------------------
b---------------17-19-t20----------------------t20-19-17---------------
g---16-17-t20------------------------------------------------t20-17-----
d---
a---
e---

e----------------------------17-20-19(uzatıyorsunuz burayı...)--------
b---------------17-19-t20------------------------------------------------
g---16-17-t20-----------------------------------------------------------
d---
a---
e---

Tabi bunların hepsini aynı sürede basıyorsunuz bütün notalar eşit süreli son nota hariç. Bölüm bölüm gibi gözükse de hepsini bir solukta çalıp başa dönmek gerekiyor. Yani en azından ben öyle yazdım. Üşenmeyip de çalacak olursanız çok eğleneceksiniz eminim...
 
#14
ohoo sen stanley jordan izleyemezsin o zaman :) adam sırf tapping le çalıyor gitarı. klavye misali... joe satriani'nin midnight'ını dinlemişssinizdir, belki izleyen de olmuştur, o şarkı sırf tappingle çalınır ama 3 parmak tapping falandır. stanley jordan 4 parmakla çalıyor ve pena falan kullanmıyor, yani iki elini de tapping olayına vermiş bulunmakta
 
#15
stanley jorda'ın bir videosunu izledimama beni çok sarmadı..

"Senin yazdığın kısımda "1.hareketteki" 15-17-15 kısmını nasıl çalıyorsun?
Eğer sağ elinin iki parmağını kullanıyorsan çok ilginçtir ben de tam buna çalışıyordum"Dave mustaine_64: ben yukarıdaki harekette sağ elimin orta parmağını ve yüzük parmağını kullanıyorum.bu arada üzgünümama VAI bu tekniği yaklaşık 10 küsur yıldır kullanıyor:)
tap slide hoş bir dalga ama benim pek sık yaptığım bir şey değil.onun yerine daha iyi orta-yüzük parmakları çalışmaları yapıyorum.eğer buna ilgi duyuyorsan vai-fire garden dan "Mysterious Murder of Christian Tiera's Lover " adlı kısa şarkının tapping kısmını özellikle tavsiye ediyorum...
 
#16
hasicktear demiş ki:
pyramind demiş ki:
oo old style haklısın sanırım karıştırdım ben, pardon.
ama angelo batio fazla öyle tapping hastası değildirki, adam swip manyağı.

Bende karıştırdığını düşünmüştüm Angelo farklı bir tarz çok hızlı ama duygu yok bence pek dinlemem o yüzden...

Benimde tapping de favorim Richie Kotzen şimdiki tarzı çok farklı yani blues, jazz a merak sardı yeni albümlerinde pek tapping göremessiniz ama eski sound'u ve tekniği Paul Gilbert'e çok yakın..
 
#19
çok değişik bir tat vardır giriş solosunda..

ayrıca klasik tappingde de eddie van halen (olmazsa olmaz) ve nuno bettencort'un adını anmamak olmaz...nuno tappingi için ise doğru adres pornograffiti den "he-man women hater" şarkısının öncesindeki "fligh of wounded bumblebee" dir...
 
#20
nienturi demiş ki:
"Senin yazdığın kısımda "1.hareketteki" 15-17-15 kısmını nasıl çalıyorsun?
Eğer sağ elinin iki parmağını kullanıyorsan çok ilginçtir ben de tam buna çalışıyordum"Dave mustaine_64: ben yukarıdaki harekette sağ elimin orta parmağını ve yüzük parmağını kullanıyorum.bu arada üzgünümama VAI bu tekniği yaklaşık 10 küsur yıldır kullanıyor:)
tap slide hoş bir dalga ama benim pek sık yaptığım bir şey değil.onun yerine daha iyi orta-yüzük parmakları çalışmaları yapıyorum.eğer buna ilgi duyuyorsan vai-fire garden dan "Mysterious Murder of Christian Tiera's Lover " adlı kısa şarkının tapping kısmını özellikle tavsiye ediyorum...
Zaten tahmin edebiliyordum, birileri mutlaka kullanıyordur demiştim :D Ben açıkçası Dragonforce gitaristi Herman Li'den esinlendim. O da kullanıyordu sağ el yüzük parmağını ama farklı teller üzerinde kullanıyordu. Çalışırken aynı tel üzerinde kullanmak geldi aklıma...

Uzunca bir süredir VAI kültürümün az olmasından yakınıyorum. Bana VAI videosu tavsiye edebilir misiniz?
 
Üst